  0
SECTION
  2
HEADER
  9
$ACADVER
  1
AC1009
  9
$INSBASE
 10
0.0
 20
0.0
 30
0.0
  9
$EXTMIN
 10
0.0
 20
0.0
 30
0.0
  9
$EXTMAX
 10
0.0
 20
0.0
 30
0.0
  0
ENDSEC
  0
SECTION
  2
TABLES
  0
TABLE
  2
VPORT
 70
0
  0
ENDTAB
  0
TABLE
  2
LTYPE
 70
1
  0
LTYPE
  2
CONTINUOUS
 70
0
  3
Solid line
 72
65
 73
0
 40
0.0
  0
ENDTAB
  0
TABLE
  2
LAYER
 70
1
  0
LAYER
  2
0
 70
64
 62
7
  6
continuous
  0
ENDTAB
  0
TABLE
  2
STYLE
 70
1
  0
STYLE
  2
STANDARD
 70
0
 40
0
 41
1.0
 50
0.0
 71
0
 42
1
 3
ARIAL.TTF
 4

  0
ENDTAB
  0
TABLE
  2
VIEW
 70
0
  0
ENDTAB
  0
ENDSEC
  0
SECTION
  2
BLOCKS
  0
BLOCK
  8
0
  2
CLONE024
 70
0
 10
0.0
 20
0.0
 30
0.0
  3
CLONE024
  0
ARC
  8
0
 62
0
 10
-356.0
 20
13.05
 30
0.0
 40
3.05
 50
-90.0
 51
90.0
  0
LINE
  8
0
 62
0
 10
-356.0
 20
9.99999999999
 30
0.0
 11
-371.0
 21
9.99999999999
 31
0.0
  0
LINE
  8
0
 62
0
 10
-371.0
 20
9.99999999999
 30
0.0
 11
-371.0
 21
-10.0
 31
0.0
  0
LINE
  8
0
 62
0
 10
-371.0
 20
-10.0
 30
0.0
 11
-356.0
 21
-10.0
 31
0.0
  0
ARC
  8
0
 62
0
 10
-356.0
 20
-13.05
 30
0.0
 40
3.05
 50
-90.0
 51
90.0
  0
LINE
  8
0
 62
0
 10
-356.0
 20
-20.0
 30
0.0
 11
-356.0
 21
-16.1
 31
0.0
  0
LINE
  8
0
 62
0
 10
-356.0
 20
-20.0
 30
0.0
 11
-146.0
 21
-20.0
 31
0.0
  0
LINE
  8
0
 62
0
 10
-146.0
 20
-20.0
 30
0.0
 11
-146.0
 21
-16.1
 31
0.0
  0
ARC
  8
0
 62
0
 10
-146.0
 20
-13.05
 30
0.0
 40
3.05
 50
90.0
 51
-90.0
  0
LINE
  8
0
 62
0
 10
-146.0
 20
-9.99999999999
 30
0.0
 11
-131.0
 21
-9.99999999999
 31
0.0
  0
LINE
  8
0
 62
0
 10
-131.0
 20
-9.99999999999
 30
0.0
 11
-131.0
 21
10.0
 31
0.0
  0
LINE
  8
0
 62
0
 10
-131.0
 20
10.0
 30
0.0
 11
-146.0
 21
10.0
 31
0.0
  0
ARC
  8
0
 62
0
 10
-146.0
 20
13.05
 30
0.0
 40
3.05
 50
90.0
 51
-90.0
  0
LINE
  8
0
 62
0
 10
-146.0
 20
16.1
 30
0.0
 11
-146.0
 21
20.0
 31
0.0
  0
LINE
  8
0
 62
0
 10
-146.0
 20
20.0
 30
0.0
 11
-356.0
 21
20.0
 31
0.0
  0
LINE
  8
0
 62
0
 10
-356.0
 20
16.1
 30
0.0
 11
-356.0
 21
20.0
 31
0.0
  0
ENDBLK
  0
ENDSEC
  0
SECTION
  2
ENTITIES
  0
INSERT
  2
CLONE024
  8
0
 62
0
 10
0.0
 20
0.0
 30
0.0
  0
ENDSEC
  0
EOF
