  0
SECTION
  2
HEADER
  9
$ACADVER
  1
AC1009
  9
$INSBASE
 10
0.0
 20
0.0
 30
0.0
  9
$EXTMIN
 10
0.0
 20
0.0
 30
0.0
  9
$EXTMAX
 10
0.0
 20
0.0
 30
0.0
  0
ENDSEC
  0
SECTION
  2
TABLES
  0
TABLE
  2
VPORT
 70
0
  0
ENDTAB
  0
TABLE
  2
LTYPE
 70
1
  0
LTYPE
  2
CONTINUOUS
 70
0
  3
Solid line
 72
65
 73
0
 40
0.0
  0
ENDTAB
  0
TABLE
  2
LAYER
 70
1
  0
LAYER
  2
0
 70
64
 62
7
  6
continuous
  0
ENDTAB
  0
TABLE
  2
STYLE
 70
1
  0
STYLE
  2
STANDARD
 70
0
 40
0
 41
1.0
 50
0.0
 71
0
 42
1
 3
ARIAL.TTF
 4

  0
ENDTAB
  0
TABLE
  2
VIEW
 70
0
  0
ENDTAB
  0
ENDSEC
  0
SECTION
  2
BLOCKS
  0
BLOCK
  8
0
  2
PART__MIRRORING
 70
0
 10
0.0
 20
0.0
 30
0.0
  3
PART__MIRRORING
  0
LINE
  8
0
 62
0
 10
-97.2226706968
 20
0.0
 30
0.0
 11
97.2226706968
 21
0.0
 31
0.0
  0
ARC
  8
0
 62
0
 10
-97.2226706968
 20
10.0
 30
0.0
 40
10.0
 50
-160.0
 51
-90.0
  0
ARC
  8
0
 62
0
 10
97.2226706968
 20
10.0
 30
0.0
 40
10.0
 50
-90.0
 51
-20.0
  0
LINE
  8
0
 62
0
 10
-116.293852416
 20
33.1595971335
 30
0.0
 11
-106.619596905
 21
6.57979856674
 31
0.0
  0
LINE
  8
0
 62
0
 10
106.619596905
 20
6.57979856674
 30
0.0
 11
116.293852416
 21
33.1595971335
 31
0.0
  0
ARC
  8
0
 62
0
 10
-97.5
 20
40.0
 30
0.0
 40
20.0
 50
90.0
 51
-160.0
  0
ARC
  8
0
 62
0
 10
97.5
 20
40.0
 30
0.0
 40
20.0
 50
-20.0
 51
90.0
  0
LINE
  8
0
 62
0
 10
97.5
 20
60.0
 30
0.0
 11
-97.5
 21
60.0
 31
0.0
  0
LINE
  8
0
 62
0
 10
-109.863919814
 20
29.8786963155
 30
0.0
 11
-106.32543876
 21
20.1567995203
 31
0.0
  0
ARC
  8
0
 62
0
 10
-103.769946787
 20
18.4918788691
 30
0.0
 40
3.05
 50
146.915479004
 51
-33.0845209958
  0
LINE
  8
0
 62
0
 10
-101.214454813
 20
16.8269582179
 30
0.0
 11
-93.9109403057
 21
19.4852201043
 31
0.0
  0
ARC
  8
0
 62
0
 10
-93.0235102459
 20
22.4032618944
 30
0.0
 40
3.05
 50
-106.915479004
 51
73.0845209958
  0
LINE
  8
0
 62
0
 10
-92.136080186
 20
25.3213036845
 30
0.0
 11
-95.6745612401
 21
35.0432004797
 31
0.0
  0
ARC
  8
0
 62
0
 10
-98.2300532133
 20
36.7081211309
 30
0.0
 40
3.05
 50
-33.0845209958
 51
146.915479004
  0
LINE
  8
0
 62
0
 10
-100.785545187
 20
38.3730417821
 30
0.0
 11
-108.089059694
 21
35.7147798957
 31
0.0
  0
ARC
  8
0
 62
0
 10
-108.976489754
 20
32.7967381056
 30
0.0
 40
3.05
 50
73.0845209958
 51
-106.915479004
  0
CIRCLE
  8
0
 62
0
 10
-60.0
 20
40.0
 30
0.0
 40
11.05
  0
CIRCLE
  8
0
 62
0
 10
-83.0
 20
30.0
 30
0.0
 40
5.25
  0
LINE
  8
0
 62
0
 10
74.0
 20
51.5
 30
0.0
 11
74.0
 21
8.5
 31
0.0
  0
LINE
  8
0
 62
0
 10
27.0
 20
51.5
 30
0.0
 11
74.0
 21
51.5
 31
0.0
  0
LINE
  8
0
 62
0
 10
27.0
 20
8.5
 30
0.0
 11
27.0
 21
51.5
 31
0.0
  0
LINE
  8
0
 62
0
 10
74.0
 20
8.5
 30
0.0
 11
27.0
 21
8.5
 31
0.0
  0
CIRCLE
  8
0
 62
0
 10
10.0
 20
40.0
 30
0.0
 40
11.05
  0
LINE
  8
0
 62
0
 10
92.136080186
 20
25.3213036845
 30
0.0
 11
95.6745612401
 21
35.0432004797
 31
0.0
  0
ARC
  8
0
 62
0
 10
93.0235102459
 20
22.4032618944
 30
0.0
 40
3.05
 50
106.915479004
 51
-73.0845209958
  0
LINE
  8
0
 62
0
 10
101.214454813
 20
16.8269582179
 30
0.0
 11
93.9109403057
 21
19.4852201043
 31
0.0
  0
ARC
  8
0
 62
0
 10
103.769946787
 20
18.4918788691
 30
0.0
 40
3.05
 50
-146.915479004
 51
33.0845209958
  0
LINE
  8
0
 62
0
 10
109.863919814
 20
29.8786963155
 30
0.0
 11
106.32543876
 21
20.1567995203
 31
0.0
  0
ARC
  8
0
 62
0
 10
108.976489754
 20
32.7967381056
 30
0.0
 40
3.05
 50
-73.0845209958
 51
106.915479004
  0
LINE
  8
0
 62
0
 10
100.785545187
 20
38.3730417821
 30
0.0
 11
108.089059694
 21
35.7147798957
 31
0.0
  0
ARC
  8
0
 62
0
 10
98.2300532133
 20
36.7081211309
 30
0.0
 40
3.05
 50
33.0845209958
 51
-146.915479004
  0
CIRCLE
  8
0
 62
0
 10
83.0
 20
30.0
 30
0.0
 40
5.25
  0
CIRCLE
  8
0
 62
0
 10
10.0
 20
40.0
 30
0.0
 40
5.0
  0
LINE
  8
0
 62
0
 10
32.0
 20
43.9
 30
0.0
 11
37.0
 21
43.9
 31
0.0
  0
ARC
  8
0
 62
0
 10
37.0
 20
45.5
 30
0.0
 40
1.6
 50
-90.0
 51
90.0
  0
LINE
  8
0
 62
0
 10
32.0
 20
47.1
 30
0.0
 11
37.0
 21
47.1
 31
0.0
  0
ARC
  8
0
 62
0
 10
32.0
 20
45.5
 30
0.0
 40
1.6
 50
90.0
 51
-90.0
  0
LINE
  8
0
 62
0
 10
47.5
 20
18.0
 30
0.0
 11
52.5
 21
18.0
 31
0.0
  0
ARC
  8
0
 62
0
 10
52.5
 20
30.0
 30
0.0
 40
12.0
 50
-90.0
 51
90.0
  0
LINE
  8
0
 62
0
 10
47.5
 20
42.0
 30
0.0
 11
52.5
 21
42.0
 31
0.0
  0
ARC
  8
0
 62
0
 10
47.5
 20
30.0
 30
0.0
 40
12.0
 50
90.0
 51
-90.0
  0
LINE
  8
0
 62
0
 10
63.0
 20
43.9
 30
0.0
 11
68.0
 21
43.9
 31
0.0
  0
ARC
  8
0
 62
0
 10
68.0
 20
45.5
 30
0.0
 40
1.6
 50
-90.0
 51
90.0
  0
LINE
  8
0
 62
0
 10
63.0
 20
47.1
 30
0.0
 11
68.0
 21
47.1
 31
0.0
  0
ARC
  8
0
 62
0
 10
63.0
 20
45.5
 30
0.0
 40
1.6
 50
90.0
 51
-90.0
  0
CIRCLE
  8
0
 62
0
 10
-60.0
 20
40.0
 30
0.0
 40
5.0
  0
LINE
  8
0
 62
0
 10
32.0
 20
12.9
 30
0.0
 11
37.0
 21
12.9
 31
0.0
  0
ARC
  8
0
 62
0
 10
37.0
 20
14.5
 30
0.0
 40
1.6
 50
-90.0
 51
90.0
  0
LINE
  8
0
 62
0
 10
32.0
 20
16.1
 30
0.0
 11
37.0
 21
16.1
 31
0.0
  0
ARC
  8
0
 62
0
 10
32.0
 20
14.5
 30
0.0
 40
1.6
 50
90.0
 51
-90.0
  0
LINE
  8
0
 62
0
 10
63.0
 20
12.9
 30
0.0
 11
68.0
 21
12.9
 31
0.0
  0
ARC
  8
0
 62
0
 10
68.0
 20
14.5
 30
0.0
 40
1.6
 50
-90.0
 51
90.0
  0
LINE
  8
0
 62
0
 10
63.0
 20
16.1
 30
0.0
 11
68.0
 21
16.1
 31
0.0
  0
ARC
  8
0
 62
0
 10
63.0
 20
14.5
 30
0.0
 40
1.6
 50
90.0
 51
-90.0
  0
ENDBLK
  0
ENDSEC
  0
SECTION
  2
ENTITIES
  0
INSERT
  2
PART__MIRRORING
  8
0
 62
0
 10
0.0
 20
0.0
 30
0.0
  0
ENDSEC
  0
EOF
